ISO-10303-21;
HEADER;
FILE_DESCRIPTION (( 'STEP AP203' ),
    '1' );
FILE_NAME ('Q-OZHWP-R2-25.4-852-M.STEP',
    '2020-12-22T09:19:50',
    ( '' ),
    ( '' ),
    'SwSTEP 2.0',
    'SolidWorks 2020',
    '' );
FILE_SCHEMA (( 'CONFIG_CONTROL_DESIGN' ));
ENDSEC;

DATA;
#1 = DATE_AND_TIME ( #13, #65 ) ;
#2 = CARTESIAN_POINT ( 'NONE',  ( -3.000000000000001776, 0.000000000000000000, 0.000000000000000000 ) ) ;
#3 = CARTESIAN_POINT ( 'NONE',  ( -3.000000000000000000, 0.000000000000000000, 0.000000000000000000 ) ) ;
#4 = CARTESIAN_POINT ( 'NONE',  ( -3.000000000000001776, 0.000000000000000000, 12.69999999999999929 ) ) ;
#5 = DIRECTION ( 'NONE',  ( 0.000000000000000000, 0.000000000000000000, 1.000000000000000000 ) ) ;
#6 = CC_DESIGN_APPROVAL ( #41, ( #69 ) ) ;
#7 = PRODUCT ( 'Q-OZHWP-R2-25.4-852-M', 'Q-OZHWP-R2-25.4-852-M', '', ( #76 ) ) ;
#8 = APPLICATION_PROTOCOL_DEFINITION ( 'international standard', 'config_control_design', 1994, #90 ) ;
#9 = CARTESIAN_POINT ( 'NONE',  ( 0.000000000000000000, 0.000000000000000000, 0.000000000000000000 ) ) ;
#10 = EDGE_CURVE ( 'NONE', #44, #93, #61, .T. ) ;
#11 = ORIENTED_EDGE ( 'NONE', *, *, #87, .T. ) ;
#12 = AXIS2_PLACEMENT_3D ( 'NONE', #62, #115, #96 ) ;
#13 = CALENDAR_DATE ( 2020, 22, 12 ) ;
#14 = COORDINATED_UNIVERSAL_TIME_OFFSET ( 8, 0, .AHEAD. ) ;
#15 = PERSON_AND_ORGANIZATION ( #32, #114 ) ;
#16 = CIRCLE ( 'NONE', #12, 12.69999999999999929 ) ;
#17 = ORIENTED_EDGE ( 'NONE', *, *, #81, .T. ) ;
#18 = FACE_OUTER_BOUND ( 'NONE', #112, .T. ) ;
#19 = DIRECTION ( 'NONE',  ( 0.000000000000000000, 0.000000000000000000, 1.000000000000000000 ) ) ;
#20 = ADVANCED_FACE ( 'NONE', ( #18 ), #129, .F. ) ;
#21 = PERSON_AND_ORGANIZATION ( #32, #114 ) ;
#22 = COORDINATED_UNIVERSAL_TIME_OFFSET ( 8, 0, .AHEAD. ) ;
#23 =( NAMED_UNIT ( * ) SI_UNIT ( $, .STERADIAN. ) SOLID_ANGLE_UNIT ( ) );
#24 = APPROVAL_STATUS ( 'not_yet_approved' ) ;
#25 = AXIS2_PLACEMENT_3D ( 'NONE', #145, #94, #19 ) ;
#26 = ADVANCED_FACE ( 'NONE', ( #31 ), #64, .T. ) ;
#27 = EDGE_LOOP ( 'NONE', ( #71, #17, #154, #72 ) ) ;
#28 = CALENDAR_DATE ( 2020, 22, 12 ) ;
#29 = CARTESIAN_POINT ( 'NONE',  ( 3.000000000000001776, 1.555301434917138433E-15, -12.69999999999999929 ) ) ;
#30 = UNCERTAINTY_MEASURE_WITH_UNIT (LENGTH_MEASURE( 1.000000000000000082E-05 ), #68, 'distance_accuracy_value', 'NONE');
#31 = FACE_OUTER_BOUND ( 'NONE', #138, .T. ) ;
#32 = PERSON ( 'UNSPECIFIED', 'UNSPECIFIED', 'UNSPECIFIED', ('UNSPECIFIED'), ('UNSPECIFIED'), ('UNSPECIFIED') ) ;
#33 = CC_DESIGN_PERSON_AND_ORGANIZATION_ASSIGNMENT ( #36, #151, ( #105 ) ) ;
#34 = LINE ( 'NONE', #86, #52 ) ;
#35 = DATE_AND_TIME ( #173, #51 ) ;
#36 = PERSON_AND_ORGANIZATION ( #32, #114 ) ;
#37 = APPLICATION_PROTOCOL_DEFINITION ( 'international standard', 'config_control_design', 1994, #165 ) ;
#38 = CIRCLE ( 'NONE', #158, 12.69999999999999929 ) ;
#39 = APPROVAL_PERSON_ORGANIZATION ( #21, #56, #159 ) ;
#40 = PERSON_AND_ORGANIZATION ( #32, #114 ) ;
#41 = APPROVAL ( #92, 'UNSPECIFIED' ) ;
#42 = LOCAL_TIME ( 17, 19, 50.00000000000000000, #150 ) ;
#43 = SECURITY_CLASSIFICATION_LEVEL ( 'unclassified' ) ;
#44 = VERTEX_POINT ( 'NONE', #4 ) ;
#45 = AXIS2_PLACEMENT_3D ( 'NONE', #3, #84, #48 ) ;
#46 = PLANE ( 'NONE',  #128 ) ;
#47 = ORIENTED_EDGE ( 'NONE', *, *, #124, .F. ) ;
#48 = DIRECTION ( 'NONE',  ( 0.000000000000000000, 0.000000000000000000, 1.000000000000000000 ) ) ;
#49 = DIRECTION ( 'NONE',  ( 0.000000000000000000, 0.000000000000000000, -1.000000000000000000 ) ) ;
#50 = CARTESIAN_POINT ( 'NONE',  ( 3.000000000000001776, 0.000000000000000000, 0.000000000000000000 ) ) ;
#51 = LOCAL_TIME ( 17, 19, 50.00000000000000000, #121 ) ;
#52 = VECTOR ( 'NONE', #59, 1000.000000000000000 ) ;
#53 = APPROVAL ( #172, 'UNSPECIFIED' ) ;
#54 = DATE_AND_TIME ( #91, #74 ) ;
#55 = CLOSED_SHELL ( 'NONE', ( #26, #58, #82, #20 ) ) ;
#56 = APPROVAL ( #24, 'UNSPECIFIED' ) ;
#57 = ORIENTED_EDGE ( 'NONE', *, *, #133, .F. ) ;
#58 = ADVANCED_FACE ( 'NONE', ( #156 ), #113, .T. ) ;
#59 = DIRECTION ( 'NONE',  ( -1.000000000000000000, -0.000000000000000000, -0.000000000000000000 ) ) ;
#60 = EDGE_CURVE ( 'NONE', #93, #44, #16, .T. ) ;
#61 = CIRCLE ( 'NONE', #136, 12.69999999999999929 ) ;
#62 = CARTESIAN_POINT ( 'NONE',  ( -3.000000000000001776, 0.000000000000000000, 0.000000000000000000 ) ) ;
#63 = DIRECTION ( 'NONE',  ( 0.000000000000000000, 0.000000000000000000, 1.000000000000000000 ) ) ;
#64 = CYLINDRICAL_SURFACE ( 'NONE', #45, 12.69999999999999929 ) ;
#65 = LOCAL_TIME ( 17, 19, 50.00000000000000000, #14 ) ;
#66 = CC_DESIGN_PERSON_AND_ORGANIZATION_ASSIGNMENT ( #15, #107, ( #105 ) ) ;
#67 = MANIFOLD_SOLID_BREP ( 'Ðý×', #55 ) ;
#68 =( LENGTH_UNIT ( ) NAMED_UNIT ( * ) SI_UNIT ( .MILLI., .METRE. ) );
#69 = SECURITY_CLASSIFICATION ( '', '', #43 ) ;
#70 = DIRECTION ( 'NONE',  ( -1.000000000000000000, -0.000000000000000000, -0.000000000000000000 ) ) ;
#71 = ORIENTED_EDGE ( 'NONE', *, *, #87, .F. ) ;
#72 = ORIENTED_EDGE ( 'NONE', *, *, #60, .F. ) ;
#73 = CARTESIAN_POINT ( 'NONE',  ( -3.000000000000001776, 1.555301434917138433E-15, -12.69999999999999929 ) ) ;
#74 = LOCAL_TIME ( 17, 19, 50.00000000000000000, #102 ) ;
#75 = PERSON_AND_ORGANIZATION_ROLE ( 'creator' ) ;
#76 = MECHANICAL_CONTEXT ( 'NONE', #90, 'mechanical' ) ;
#77 = ORIENTED_EDGE ( 'NONE', *, *, #124, .T. ) ;
#78 = ORIENTED_EDGE ( 'NONE', *, *, #10, .T. ) ;
#79 = PERSON_AND_ORGANIZATION ( #32, #114 ) ;
#80 = VERTEX_POINT ( 'NONE', #171 ) ;
#81 = EDGE_CURVE ( 'NONE', #144, #80, #38, .T. ) ;
#82 = ADVANCED_FACE ( 'NONE', ( #95 ), #46, .F. ) ;
#83 = CARTESIAN_POINT ( 'NONE',  ( -3.000000000000000888, 12.69999999999999929, 0.000000000000000000 ) ) ;
#84 = DIRECTION ( 'NONE',  ( -1.000000000000000000, -0.000000000000000000, -0.000000000000000000 ) ) ;
#85 = DIRECTION ( 'NONE',  ( -0.000000000000000000, 0.000000000000000000, 1.000000000000000000 ) ) ;
#86 = CARTESIAN_POINT ( 'NONE',  ( -3.000000000000000000, 1.555301434917138433E-15, -12.69999999999999929 ) ) ;
#87 = EDGE_CURVE ( 'NONE', #144, #93, #34, .T. ) ;
#88 = APPROVAL_DATE_TIME ( #35, #56 ) ;
#89 = DIRECTION ( 'NONE',  ( 1.000000000000000000, 0.000000000000000000, 0.000000000000000000 ) ) ;
#90 = APPLICATION_CONTEXT ( 'configuration controlled 3d designs of mechanical parts and assemblies' ) ;
#91 = CALENDAR_DATE ( 2020, 22, 12 ) ;
#92 = APPROVAL_STATUS ( 'not_yet_approved' ) ;
#93 = VERTEX_POINT ( 'NONE', #73 ) ;
#94 = DIRECTION ( 'NONE',  ( -1.000000000000000000, -0.000000000000000000, -0.000000000000000000 ) ) ;
#95 = FACE_OUTER_BOUND ( 'NONE', #167, .T. ) ;
#96 = DIRECTION ( 'NONE',  ( 0.000000000000000000, 0.000000000000000000, 1.000000000000000000 ) ) ;
#97 = PRODUCT_DEFINITION ( 'UNKNOWN', '', #105, #127 ) ;
#98 = DIRECTION ( 'NONE',  ( -1.000000000000000000, -0.000000000000000000, -0.000000000000000000 ) ) ;
#99 = CC_DESIGN_PERSON_AND_ORGANIZATION_ASSIGNMENT ( #40, #75, ( #97 ) ) ;
#100 = DIRECTION ( 'NONE',  ( -1.000000000000000000, -0.000000000000000000, -0.000000000000000000 ) ) ;
#101 = CC_DESIGN_APPROVAL ( #56, ( #97 ) ) ;
#102 = COORDINATED_UNIVERSAL_TIME_OFFSET ( 8, 0, .AHEAD. ) ;
#103 = PERSON_AND_ORGANIZATION ( #32, #114 ) ;
#104 = DIRECTION ( 'NONE',  ( 0.000000000000000000, 0.000000000000000000, 1.000000000000000000 ) ) ;
#105 = PRODUCT_DEFINITION_FORMATION_WITH_SPECIFIED_SOURCE ( 'ANY', '', #7, .NOT_KNOWN. ) ;
#106 = APPROVAL_DATE_TIME ( #160, #53 ) ;
#107 = PERSON_AND_ORGANIZATION_ROLE ( 'design_supplier' ) ;
#108 = CC_DESIGN_PERSON_AND_ORGANIZATION_ASSIGNMENT ( #125, #135, ( #69 ) ) ;
#109 = SHAPE_DEFINITION_REPRESENTATION ( #116, #134 ) ;
#110 = ORIENTED_EDGE ( 'NONE', *, *, #10, .F. ) ;
#111 = APPROVAL_DATE_TIME ( #1, #41 ) ;
#112 = EDGE_LOOP ( 'NONE', ( #78, #164 ) ) ;
#113 = CYLINDRICAL_SURFACE ( 'NONE', #118, 12.69999999999999929 ) ;
#114 = ORGANIZATION ( 'UNSPECIFIED', 'UNSPECIFIED', '' ) ;
#115 = DIRECTION ( 'NONE',  ( -1.000000000000000000, -0.000000000000000000, -0.000000000000000000 ) ) ;
#116 = PRODUCT_DEFINITION_SHAPE ( 'NONE', 'NONE',  #97 ) ;
#117 = DIRECTION ( 'NONE',  ( 1.000000000000000000, 0.000000000000000000, 0.000000000000000000 ) ) ;
#118 = AXIS2_PLACEMENT_3D ( 'NONE', #140, #98, #157 ) ;
#119 = LOCAL_TIME ( 17, 19, 50.00000000000000000, #22 ) ;
#120 = PERSON_AND_ORGANIZATION ( #32, #114 ) ;
#121 = COORDINATED_UNIVERSAL_TIME_OFFSET ( 8, 0, .AHEAD. ) ;
#122 = AXIS2_PLACEMENT_3D ( 'NONE', #9, #104, #89 ) ;
#123 = PERSON_AND_ORGANIZATION_ROLE ( 'design_owner' ) ;
#124 = EDGE_CURVE ( 'NONE', #80, #144, #152, .T. ) ;
#125 = PERSON_AND_ORGANIZATION ( #32, #114 ) ;
#126 = CC_DESIGN_APPROVAL ( #53, ( #105 ) ) ;
#127 = DESIGN_CONTEXT ( 'detailed design', #165, 'design' ) ;
#128 = AXIS2_PLACEMENT_3D ( 'NONE', #169, #155, #85 ) ;
#129 = PLANE ( 'NONE',  #163 ) ;
#130 = DIRECTION ( 'NONE',  ( -1.000000000000000000, -0.000000000000000000, -0.000000000000000000 ) ) ;
#131 = DATE_TIME_ROLE ( 'creation_date' ) ;
#132 = CC_DESIGN_PERSON_AND_ORGANIZATION_ASSIGNMENT ( #103, #123, ( #7 ) ) ;
#133 = EDGE_CURVE ( 'NONE', #80, #44, #146, .T. ) ;
#134 = ADVANCED_BREP_SHAPE_REPRESENTATION ( 'Q-OZHWP-R2-25.4-852-M', ( #67, #122 ), #153 ) ;
#135 = PERSON_AND_ORGANIZATION_ROLE ( 'classification_officer' ) ;
#136 = AXIS2_PLACEMENT_3D ( 'NONE', #2, #70, #5 ) ;
#137 = DATE_TIME_ROLE ( 'classification_date' ) ;
#138 = EDGE_LOOP ( 'NONE', ( #77, #11, #110, #57 ) ) ;
#139 = PRODUCT_RELATED_PRODUCT_CATEGORY ( 'detail', '', ( #7 ) ) ;
#140 = CARTESIAN_POINT ( 'NONE',  ( -3.000000000000000000, 0.000000000000000000, 0.000000000000000000 ) ) ;
#141 = VECTOR ( 'NONE', #130, 1000.000000000000000 ) ;
#142 = APPROVAL_PERSON_ORGANIZATION ( #79, #41, #162 ) ;
#143 = CARTESIAN_POINT ( 'NONE',  ( -3.000000000000000000, 0.000000000000000000, 12.69999999999999929 ) ) ;
#144 = VERTEX_POINT ( 'NONE', #29 ) ;
#145 = CARTESIAN_POINT ( 'NONE',  ( 3.000000000000001776, 0.000000000000000000, 0.000000000000000000 ) ) ;
#146 = LINE ( 'NONE', #143, #141 ) ;
#147 = APPROVAL_ROLE ( '' ) ;
#148 = CALENDAR_DATE ( 2020, 22, 12 ) ;
#149 = CC_DESIGN_DATE_AND_TIME_ASSIGNMENT ( #166, #137, ( #69 ) ) ;
#150 = COORDINATED_UNIVERSAL_TIME_OFFSET ( 8, 0, .AHEAD. ) ;
#151 = PERSON_AND_ORGANIZATION_ROLE ( 'creator' ) ;
#152 = CIRCLE ( 'NONE', #25, 12.69999999999999929 ) ;
#153 =( GEOMETRIC_REPRESENTATION_CONTEXT ( 3 ) GLOBAL_UNCERTAINTY_ASSIGNED_CONTEXT ( ( #30 ) ) GLOBAL_UNIT_ASSIGNED_CONTEXT ( ( #68, #175, #23 ) ) REPRESENTATION_CONTEXT ( 'NONE', 'WORKASPACE' ) );
#154 = ORIENTED_EDGE ( 'NONE', *, *, #133, .T. ) ;
#155 = DIRECTION ( 'NONE',  ( -1.000000000000000000, 0.000000000000000000, -0.000000000000000000 ) ) ;
#156 = FACE_OUTER_BOUND ( 'NONE', #27, .T. ) ;
#157 = DIRECTION ( 'NONE',  ( 0.000000000000000000, 0.000000000000000000, 1.000000000000000000 ) ) ;
#158 = AXIS2_PLACEMENT_3D ( 'NONE', #50, #100, #63 ) ;
#159 = APPROVAL_ROLE ( '' ) ;
#160 = DATE_AND_TIME ( #148, #119 ) ;
#161 = CC_DESIGN_SECURITY_CLASSIFICATION ( #69, ( #105 ) ) ;
#162 = APPROVAL_ROLE ( '' ) ;
#163 = AXIS2_PLACEMENT_3D ( 'NONE', #83, #117, #49 ) ;
#164 = ORIENTED_EDGE ( 'NONE', *, *, #60, .T. ) ;
#165 = APPLICATION_CONTEXT ( 'configuration controlled 3d designs of mechanical parts and assemblies' ) ;
#166 = DATE_AND_TIME ( #28, #42 ) ;
#167 = EDGE_LOOP ( 'NONE', ( #47, #168 ) ) ;
#168 = ORIENTED_EDGE ( 'NONE', *, *, #81, .F. ) ;
#169 = CARTESIAN_POINT ( 'NONE',  ( 3.000000000000000888, 12.69999999999999929, 0.000000000000000000 ) ) ;
#170 = CC_DESIGN_DATE_AND_TIME_ASSIGNMENT ( #54, #131, ( #97 ) ) ;
#171 = CARTESIAN_POINT ( 'NONE',  ( 3.000000000000001776, 0.000000000000000000, 12.69999999999999929 ) ) ;
#172 = APPROVAL_STATUS ( 'not_yet_approved' ) ;
#173 = CALENDAR_DATE ( 2020, 22, 12 ) ;
#174 = APPROVAL_PERSON_ORGANIZATION ( #120, #53, #147 ) ;
#175 =( NAMED_UNIT ( * ) PLANE_ANGLE_UNIT ( ) SI_UNIT ( $, .RADIAN. ) );
ENDSEC;
END-ISO-10303-21;
